ilgiliforum facebook   ilgiliforum instagram   ilgiliforum youtube   ilgiliforum tumblr   ilgiliforum pinterest   ilgiliforum rss  

Beni Yak Herşeyi Yak gitar akoru

 
Bu konu ile benzer olabilecek diğer forum sayfaları
 
 
 
 
   

Beni Yak Herşeyi Yak gitar akoru

 

herşeyi yak gitar tab, akor
Beni Yak Herşeyi Yak gitar akorları


Beni Yak Herşeyi Yak Gitar Akoru

( ) = Gitardan sus
\ = Kaydır

Intro 1 (4 Kez)
G|--77-9\55555-3302222------------|
D|--00-0-00000-0000000------------|


Söz Kısmı 1
D5 C5 Bb5
G|--(7)(7)(7)(7)(7)(7)(7)(7)---(5)(5)(5)(5)---(3)(3)(3)(3)---|
D|--(7)(7)(7)(7)(7)(7)(7)(7)---(5)(5)(5)(5)---(3)(3)(3)(3)---|
A|--(5)(5)(5)(5)(5)(5)(5)(5)---(3)(3)(3)(3)---(1)(1)(1)(1)---|
E|-----------------------------------------------------------|

Beni yak kendini yak herşe__________yi yak
Bir kıvılcım yeter ben hazırım bak

A5 A#5
G|-----------------------------------------------------------|
D|--(7)(7)(7)(7)(7)(7)(7)(7)---(8)(8)(8)(8)(8)(8)(8)(8)------|
A|--(7)(7)(7)(7)(7)(7)(7)(7)---(8)(8)(8)(8)(8)(8)(8)(8)------|
E|--(5)(5)(5)(5)(5)(5)(5)(5)---(6)(6)(6)(6)(6)(6)(6)(6)------|

İster öp okşa istersen öldür

G5 A5
G|-----------------------------------------------------------|
D|--(5)(5)(5)(5)(5)(5)(5)(5)---(7)(7)(7)(7)(7)(7)(7)(7)------|
A|--(5)(5)(5)(5)(5)(5)(5)(5)---(7)(7)(7)(7)(7)(7)(7)(7)------|
E|--(3)(3)(3)(3)(3)(3)(3)(3)---(5)(5)(5)(5)(5)(5)(5)(5)------|

Aşk için ölmeli aşk o zaman aşk

G5 A#5
G|-----------------------------------------------------------|
D|--(5)(5)(5)(5)(5)(5)(5)(5)---(8)(8)(8)(8)(8)(8)(8)(8)------|
A|--(5)(5)(5)(5)(5)(5)(5)(5)---(8)(8)(8)(8)(8)(8)(8)(8)------|
E|--(3)(3)(3)(3)(3)(3)(3)(3)---(6)(6)(6)(6)(6)(6)(6)(6)------|

Aşk için ölmeli aşk o zaman aşk


Intro 2 (8 Kez)
G|--77\9\55555-33022220------------|
D|--00-0-00000-00000000-3235-203---|
A|----------------------0000-000---|

G|--77\9\55555-33022220--------2---|
D|--00-0-00000-00000000-3235-200---|
A|----------------------0000-00----|

Söz kısmı 2 Aynı Akorlar


NAKARAT
D5 G5 D5 A5 G5 A5
G|--7--7------------7--7---------------------------------|
D|--7--7-----5--5---7--7---7-7---55555555-----77777777---|
A|--5--5-----5--5---5--5---7-7---55555555-----77777777---|
E|-----------3--3----------5-5---33333333-----55555555---|
All_____ahım All___ahım ateşlere yürü__yorum

D5 G5 D5 A5 G5 A5
G|--7--7------------7--7----------------------------------|
D|--7--7-----5--5---7--7---7-7---55555555------88888888---|
A|--5--5-----5--5---5--5---7-7---55555555------88888888---|
E|-----------3--3----------5-5---33333333------66666666---|
All_____ahım Acı ile aşk ile büyü__yorum

Intro 3(2 ile aynı)
Söz Kısmı 3 (sadece bas gitar ve davulla)
Nakarat
Söz kısmı 1
Söz kısmı 2

ilgiliFORUM.com

 
 
Forumlar okunmak ve paylaşmak içindir...

 
 

 ~ 

Bu konunun linki : 

Yukarıdaki linki arkadaşlarınıza göndermek için kullanabilirsiniz ve bu sayfada; Beni Yak Herşeyi Yak gitar akoru hakkında bilgiler nedir yazıları veya şiirleri gibi sözleri veya resimleri Beni Yak Herşeyi Yak gitar akoru siteleri gibi benzer birçok forum konularını bulabilirsiniz.

 ~ 

Son Forum Mesajları

Kaynak linkimizi belirtmek koşulu ile her türlü bilgiyi kopyalayabilirsiniz. Forum içerisinde yazılan tüm mesajların hukuki sorumlulukları mesajları yazanlara aittir. Üyeler, üyelik sözleşmesi gereği bu kuralı kabul etmiş sayılır. Ziyaretçilerimiz bu forumu kullanmadan önce Forum Kurallarını okumak zorundadırlar. Aksi durumda meydana gelecek bütün olumsuz durumlardan ziyaretçilerin bizzat kendileri sorumludur. Sitemizde telif, kişi haklarına; yasalara aykırı olduğunu düşündüğünüz bir konu görürseniz bize aşağıdaki iletişim adresinden ulaşabilirsiniz.

1, 2, 3, 4, 5, 6, 7, 8, 9, 10, 11, 12, 13, 14, 15, 16, 17, 18, 19, 20, 21, 22, 23, 24, 25, 26, 27, 28, 29, 30, 31, 32, 33, 34, 35, 36, 37, 38, 39, 40, 41, 42, 43, 44, 45, 46, 47, 48, 49, 50, 51, 52, 53, 54, 55, 56, 57, 58, 59, 60 100, 150, 200, 250, 300, 350, 400, 450, 500, 550, 600, 650, 700, 750, 800, 850, 900, 950, 960

© 2006-2019 ilgiliFORUM.com